ISO-10303-21;
HEADER;
FILE_DESCRIPTION (( 'STEP AP203' ),
    '1' );
FILE_NAME ('24334100d.STEP',
    '2024-11-19T12:28:36',
    ( '' ),
    ( '' ),
    'SwSTEP 2.0',
    'SolidWorks 2023',
    '' );
FILE_SCHEMA (( 'CONFIG_CONTROL_DESIGN' ));
ENDSEC;

DATA;
#1 = ORIENTED_EDGE ( 'NONE', *, *, #204, .F. ) ;
#2 = APPROVAL_STATUS ( 'not_yet_approved' ) ;
#3 = CARTESIAN_POINT ( 'NONE',  ( -22.50000000000000000, -15.00000000000000000, 0.000000000000000000 ) ) ;
#4 = CARTESIAN_POINT ( 'NONE',  ( 22.50000000000000711, -14.99999999999999467, 2.500000000000000000 ) ) ;
#5 = DIRECTION ( 'NONE',  ( -0.000000000000000000, 0.000000000000000000, 1.000000000000000000 ) ) ;
#6 = DIRECTION ( 'NONE',  ( -0.000000000000000000, -0.000000000000000000, -1.000000000000000000 ) ) ;
#7 = EDGE_CURVE ( 'NONE', #19, #114, #189, .T. ) ;
#8 = DIRECTION ( 'NONE',  ( 1.000000000000000000, 7.709882115452476934E-17, 0.000000000000000000 ) ) ;
#9 = CARTESIAN_POINT ( 'NONE',  ( 22.49999999999999645, 15.00000000000000355, 2.500000000000000000 ) ) ;
#10 = EDGE_CURVE ( 'NONE', #38, #151, #41, .T. ) ;
#11 = LOCAL_TIME ( 13, 28, 36.00000000000000000, #93 ) ;
#12 = VECTOR ( 'NONE', #196, 1000.000000000000000 ) ;
#13 = DATE_AND_TIME ( #166, #11 ) ;
#14 = PERSON_AND_ORGANIZATION_ROLE ( 'design_owner' ) ;
#15 = ADVANCED_FACE ( 'NONE', ( #97 ), #172, .F. ) ;
#16 = MECHANICAL_CONTEXT ( 'NONE', #85, 'mechanical' ) ;
#17 = CC_DESIGN_PERSON_AND_ORGANIZATION_ASSIGNMENT ( #72, #203, ( #150 ) ) ;
#18 = COORDINATED_UNIVERSAL_TIME_OFFSET ( 1, 0, .AHEAD. ) ;
#19 = VERTEX_POINT ( 'NONE', #118 ) ;
#20 = EDGE_LOOP ( 'NONE', ( #79, #157, #43, #57 ) ) ;
#21 = ADVANCED_BREP_SHAPE_REPRESENTATION ( '24334100d', ( #108, #123 ), #28 ) ;
#22 = SHAPE_DEFINITION_REPRESENTATION ( #112, #21 ) ;
#23 = DIRECTION ( 'NONE',  ( -1.000000000000000000, -7.709882115452476934E-17, -0.000000000000000000 ) ) ;
#24 = DIRECTION ( 'NONE',  ( 7.709882115452476934E-17, -1.000000000000000000, 0.000000000000000000 ) ) ;
#25 = PLANE ( 'NONE',  #174 ) ;
#26 = CARTESIAN_POINT ( 'NONE',  ( -22.50000000000000000, -15.00000000000000000, 2.500000000000000000 ) ) ;
#27 = PRODUCT_RELATED_PRODUCT_CATEGORY ( 'detail', '', ( #148 ) ) ;
#28 =( GEOMETRIC_REPRESENTATION_CONTEXT ( 3 ) GLOBAL_UNCERTAINTY_ASSIGNED_CONTEXT ( ( #51 ) ) GLOBAL_UNIT_ASSIGNED_CONTEXT ( ( #181, #74, #106 ) ) REPRESENTATION_CONTEXT ( 'NONE', 'WORKASPACE' ) );
#29 = ADVANCED_FACE ( 'NONE', ( #191 ), #25, .T. ) ;
#30 = CARTESIAN_POINT ( 'NONE',  ( 22.49999999999999645, 15.00000000000000355, 2.500000000000000000 ) ) ;
#31 = LINE ( 'NONE', #30, #164 ) ;
#32 = CARTESIAN_POINT ( 'NONE',  ( -22.50000000000000000, -15.00000000000000000, 0.000000000000000000 ) ) ;
#33 = LOCAL_TIME ( 13, 28, 36.00000000000000000, #134 ) ;
#34 = CARTESIAN_POINT ( 'NONE',  ( 0.000000000000000000, 0.000000000000000000, 0.000000000000000000 ) ) ;
#35 = VECTOR ( 'NONE', #65, 1000.000000000000000 ) ;
#36 = DATE_AND_TIME ( #53, #152 ) ;
#37 = APPROVAL_DATE_TIME ( #219, #198 ) ;
#38 = VERTEX_POINT ( 'NONE', #159 ) ;
#39 = ORIENTED_EDGE ( 'NONE', *, *, #139, .T. ) ;
#40 = CARTESIAN_POINT ( 'NONE',  ( 22.50000000000000711, -14.99999999999999467, 0.000000000000000000 ) ) ;
#41 = LINE ( 'NONE', #226, #156 ) ;
#42 = LINE ( 'NONE', #138, #183 ) ;
#43 = ORIENTED_EDGE ( 'NONE', *, *, #71, .F. ) ;
#44 = DIRECTION ( 'NONE',  ( -3.469446951953614189E-16, 1.000000000000000000, -0.000000000000000000 ) ) ;
#45 = EDGE_CURVE ( 'NONE', #153, #19, #84, .T. ) ;
#46 = VECTOR ( 'NONE', #6, 1000.000000000000000 ) ;
#47 = DIRECTION ( 'NONE',  ( -1.156482317317871478E-16, 1.000000000000000000, 0.000000000000000000 ) ) ;
#48 = FACE_OUTER_BOUND ( 'NONE', #77, .T. ) ;
#49 = CLOSED_SHELL ( 'NONE', ( #115, #50, #179, #187, #29, #15 ) ) ;
#50 = ADVANCED_FACE ( 'NONE', ( #225 ), #175, .F. ) ;
#51 = UNCERTAINTY_MEASURE_WITH_UNIT (LENGTH_MEASURE( 1.000000000000000082E-05 ), #181, 'distance_accuracy_value', 'NONE');
#52 = SECURITY_CLASSIFICATION_LEVEL ( 'unclassified' ) ;
#53 = CALENDAR_DATE ( 2024, 19, 11 ) ;
#54 = LOCAL_TIME ( 13, 28, 36.00000000000000000, #180 ) ;
#55 = VECTOR ( 'NONE', #44, 1000.000000000000000 ) ;
#56 = PERSON_AND_ORGANIZATION ( #208, #220 ) ;
#57 = ORIENTED_EDGE ( 'NONE', *, *, #204, .T. ) ;
#58 = ORIENTED_EDGE ( 'NONE', *, *, #60, .F. ) ;
#59 = APPROVAL_ROLE ( '' ) ;
#60 = EDGE_CURVE ( 'NONE', #38, #19, #31, .T. ) ;
#61 = DIRECTION ( 'NONE',  ( -1.000000000000000000, -7.709882115452476934E-17, -0.000000000000000000 ) ) ;
#62 = LINE ( 'NONE', #103, #102 ) ;
#63 = CC_DESIGN_PERSON_AND_ORGANIZATION_ASSIGNMENT ( #149, #167, ( #235 ) ) ;
#64 = VERTEX_POINT ( 'NONE', #4 ) ;
#65 = DIRECTION ( 'NONE',  ( 1.156482317317871478E-16, -1.000000000000000000, 0.000000000000000000 ) ) ;
#66 = LINE ( 'NONE', #210, #215 ) ;
#67 = ORIENTED_EDGE ( 'NONE', *, *, #10, .F. ) ;
#68 = CARTESIAN_POINT ( 'NONE',  ( 22.49999999999999645, 15.00000000000000355, 2.500000000000000000 ) ) ;
#69 = CC_DESIGN_APPROVAL ( #231, ( #131 ) ) ;
#70 = AXIS2_PLACEMENT_3D ( 'NONE', #3, #135, #137 ) ;
#71 = EDGE_CURVE ( 'NONE', #133, #64, #178, .T. ) ;
#72 = PERSON_AND_ORGANIZATION ( #208, #220 ) ;
#73 = APPROVAL_STATUS ( 'not_yet_approved' ) ;
#74 =( NAMED_UNIT ( * ) PLANE_ANGLE_UNIT ( ) SI_UNIT ( $, .RADIAN. ) );
#75 = ORIENTED_EDGE ( 'NONE', *, *, #45, .T. ) ;
#76 = DATE_AND_TIME ( #155, #33 ) ;
#77 = EDGE_LOOP ( 'NONE', ( #171, #222, #67, #194 ) ) ;
#78 = EDGE_CURVE ( 'NONE', #64, #38, #83, .T. ) ;
#79 = ORIENTED_EDGE ( 'NONE', *, *, #88, .T. ) ;
#80 = CARTESIAN_POINT ( 'NONE',  ( -22.50000000000000000, -15.00000000000000000, 0.000000000000000000 ) ) ;
#81 = VECTOR ( 'NONE', #161, 1000.000000000000000 ) ;
#82 = DIRECTION ( 'NONE',  ( 1.000000000000000000, 0.000000000000000000, 0.000000000000000000 ) ) ;
#83 = LINE ( 'NONE', #9, #55 ) ;
#84 = LINE ( 'NONE', #136, #81 ) ;
#85 = APPLICATION_CONTEXT ( 'configuration controlled 3d designs of mechanical parts and assemblies' ) ;
#86 = CARTESIAN_POINT ( 'NONE',  ( -22.50000000000000000, -15.00000000000000000, 2.500000000000000000 ) ) ;
#87 = CC_DESIGN_APPROVAL ( #216, ( #235 ) ) ;
#88 = EDGE_CURVE ( 'NONE', #186, #153, #228, .T. ) ;
#89 = AXIS2_PLACEMENT_3D ( 'NONE', #160, #213, #47 ) ;
#90 = EDGE_LOOP ( 'NONE', ( #39, #132, #170, #95 ) ) ;
#91 = DATE_AND_TIME ( #109, #54 ) ;
#92 = APPLICATION_PROTOCOL_DEFINITION ( 'international standard', 'config_control_design', 1994, #94 ) ;
#93 = COORDINATED_UNIVERSAL_TIME_OFFSET ( 1, 0, .AHEAD. ) ;
#94 = APPLICATION_CONTEXT ( 'configuration controlled 3d designs of mechanical parts and assemblies' ) ;
#95 = ORIENTED_EDGE ( 'NONE', *, *, #10, .T. ) ;
#96 = ORIENTED_EDGE ( 'NONE', *, *, #230, .F. ) ;
#97 = FACE_OUTER_BOUND ( 'NONE', #185, .T. ) ;
#98 = DIRECTION ( 'NONE',  ( 1.000000000000000000, 1.156482317317871478E-16, 0.000000000000000000 ) ) ;
#99 = CARTESIAN_POINT ( 'NONE',  ( -22.50000000000000000, -15.00000000000000000, 2.500000000000000000 ) ) ;
#100 = DIRECTION ( 'NONE',  ( -0.000000000000000000, -0.000000000000000000, -1.000000000000000000 ) ) ;
#101 = LOCAL_TIME ( 13, 28, 36.00000000000000000, #18 ) ;
#102 = VECTOR ( 'NONE', #100, 1000.000000000000000 ) ;
#103 = CARTESIAN_POINT ( 'NONE',  ( 22.50000000000000711, -14.99999999999999467, 2.500000000000000000 ) ) ;
#104 = CARTESIAN_POINT ( 'NONE',  ( -22.50000000000000000, -15.00000000000000000, 2.500000000000000000 ) ) ;
#105 = CC_DESIGN_DATE_AND_TIME_ASSIGNMENT ( #13, #234, ( #235 ) ) ;
#106 =( NAMED_UNIT ( * ) SI_UNIT ( $, .STERADIAN. ) SOLID_ANGLE_UNIT ( ) );
#107 = PERSON_AND_ORGANIZATION ( #208, #220 ) ;
#108 = MANIFOLD_SOLID_BREP ( 'Aufsatz-Linear austragen1', #49 ) ;
#109 = CALENDAR_DATE ( 2024, 19, 11 ) ;
#110 = APPROVAL_DATE_TIME ( #91, #216 ) ;
#111 = EDGE_CURVE ( 'NONE', #151, #114, #66, .T. ) ;
#112 = PRODUCT_DEFINITION_SHAPE ( 'NONE', 'NONE',  #235 ) ;
#113 = PERSON_AND_ORGANIZATION ( #208, #220 ) ;
#114 = VERTEX_POINT ( 'NONE', #177 ) ;
#115 = ADVANCED_FACE ( 'NONE', ( #158 ), #140, .F. ) ;
#116 = ORIENTED_EDGE ( 'NONE', *, *, #230, .T. ) ;
#117 = PLANE ( 'NONE',  #124 ) ;
#118 = CARTESIAN_POINT ( 'NONE',  ( 22.49999999999999645, 15.00000000000000355, 0.000000000000000000 ) ) ;
#119 = DIRECTION ( 'NONE',  ( -1.156482317317871478E-16, 1.000000000000000000, 0.000000000000000000 ) ) ;
#120 = DESIGN_CONTEXT ( 'detailed design', #94, 'design' ) ;
#121 = ORIENTED_EDGE ( 'NONE', *, *, #88, .F. ) ;
#122 = DIRECTION ( 'NONE',  ( -0.000000000000000000, -0.000000000000000000, -1.000000000000000000 ) ) ;
#123 = AXIS2_PLACEMENT_3D ( 'NONE', #34, #184, #165 ) ;
#124 = AXIS2_PLACEMENT_3D ( 'NONE', #68, #214, #212 ) ;
#125 = CARTESIAN_POINT ( 'NONE',  ( -22.50000000000000355, 15.00000000000000000, 2.500000000000000000 ) ) ;
#126 = PLANE ( 'NONE',  #221 ) ;
#127 = COORDINATED_UNIVERSAL_TIME_OFFSET ( 1, 0, .AHEAD. ) ;
#128 = CC_DESIGN_APPROVAL ( #198, ( #150 ) ) ;
#129 = EDGE_CURVE ( 'NONE', #64, #153, #62, .T. ) ;
#130 = PERSON_AND_ORGANIZATION_ROLE ( 'classification_officer' ) ;
#131 = SECURITY_CLASSIFICATION ( '', '', #52 ) ;
#132 = ORIENTED_EDGE ( 'NONE', *, *, #71, .T. ) ;
#133 = VERTEX_POINT ( 'NONE', #86 ) ;
#134 = COORDINATED_UNIVERSAL_TIME_OFFSET ( 1, 0, .AHEAD. ) ;
#135 = DIRECTION ( 'NONE',  ( -0.000000000000000000, 0.000000000000000000, 1.000000000000000000 ) ) ;
#136 = CARTESIAN_POINT ( 'NONE',  ( 22.49999999999999645, 15.00000000000000355, 0.000000000000000000 ) ) ;
#137 = DIRECTION ( 'NONE',  ( 1.000000000000000000, 0.000000000000000000, 0.000000000000000000 ) ) ;
#138 = CARTESIAN_POINT ( 'NONE',  ( -22.50000000000000355, 15.00000000000000000, 2.500000000000000000 ) ) ;
#139 = EDGE_CURVE ( 'NONE', #151, #133, #42, .T. ) ;
#140 = PLANE ( 'NONE',  #89 ) ;
#141 = CARTESIAN_POINT ( 'NONE',  ( -22.50000000000000000, -15.00000000000000000, 2.500000000000000000 ) ) ;
#142 = APPROVAL_PERSON_ORGANIZATION ( #237, #231, #59 ) ;
#143 = VECTOR ( 'NONE', #23, 1000.000000000000000 ) ;
#144 = PERSON_AND_ORGANIZATION_ROLE ( 'design_supplier' ) ;
#145 = CC_DESIGN_DATE_AND_TIME_ASSIGNMENT ( #36, #154, ( #131 ) ) ;
#146 = APPROVAL_ROLE ( '' ) ;
#147 = CC_DESIGN_PERSON_AND_ORGANIZATION_ASSIGNMENT ( #56, #144, ( #150 ) ) ;
#148 = PRODUCT ( '24334100d', '24334100d', '', ( #16 ) ) ;
#149 = PERSON_AND_ORGANIZATION ( #208, #220 ) ;
#150 = PRODUCT_DEFINITION_FORMATION_WITH_SPECIFIED_SOURCE ( 'ANY', '', #148, .NOT_KNOWN. ) ;
#151 = VERTEX_POINT ( 'NONE', #125 ) ;
#152 = LOCAL_TIME ( 13, 28, 36.00000000000000000, #127 ) ;
#153 = VERTEX_POINT ( 'NONE', #40 ) ;
#154 = DATE_TIME_ROLE ( 'classification_date' ) ;
#155 = CALENDAR_DATE ( 2024, 19, 11 ) ;
#156 = VECTOR ( 'NONE', #61, 1000.000000000000000 ) ;
#157 = ORIENTED_EDGE ( 'NONE', *, *, #129, .F. ) ;
#158 = FACE_OUTER_BOUND ( 'NONE', #205, .T. ) ;
#159 = CARTESIAN_POINT ( 'NONE',  ( 22.49999999999999645, 15.00000000000000355, 2.500000000000000000 ) ) ;
#160 = CARTESIAN_POINT ( 'NONE',  ( -22.50000000000000355, 15.00000000000000000, 2.500000000000000000 ) ) ;
#161 = DIRECTION ( 'NONE',  ( -3.469446951953614189E-16, 1.000000000000000000, -0.000000000000000000 ) ) ;
#162 = DIRECTION ( 'NONE',  ( -1.000000000000000000, -1.156482317317871478E-16, 0.000000000000000000 ) ) ;
#163 = APPROVAL_PERSON_ORGANIZATION ( #113, #216, #200 ) ;
#164 = VECTOR ( 'NONE', #122, 1000.000000000000000 ) ;
#165 = DIRECTION ( 'NONE',  ( 1.000000000000000000, 0.000000000000000000, 0.000000000000000000 ) ) ;
#166 = CALENDAR_DATE ( 2024, 19, 11 ) ;
#167 = PERSON_AND_ORGANIZATION_ROLE ( 'creator' ) ;
#168 = ORIENTED_EDGE ( 'NONE', *, *, #78, .F. ) ;
#169 = ORIENTED_EDGE ( 'NONE', *, *, #45, .F. ) ;
#170 = ORIENTED_EDGE ( 'NONE', *, *, #78, .T. ) ;
#171 = ORIENTED_EDGE ( 'NONE', *, *, #7, .T. ) ;
#172 = PLANE ( 'NONE',  #70 ) ;
#173 = FACE_OUTER_BOUND ( 'NONE', #207, .T. ) ;
#174 = AXIS2_PLACEMENT_3D ( 'NONE', #99, #5, #82 ) ;
#175 = PLANE ( 'NONE',  #201 ) ;
#176 = CC_DESIGN_PERSON_AND_ORGANIZATION_ASSIGNMENT ( #107, #14, ( #148 ) ) ;
#177 = CARTESIAN_POINT ( 'NONE',  ( -22.50000000000000355, 15.00000000000000000, 0.000000000000000000 ) ) ;
#178 = LINE ( 'NONE', #104, #193 ) ;
#179 = ADVANCED_FACE ( 'NONE', ( #173 ), #117, .F. ) ;
#180 = COORDINATED_UNIVERSAL_TIME_OFFSET ( 1, 0, .AHEAD. ) ;
#181 =( LENGTH_UNIT ( ) NAMED_UNIT ( * ) SI_UNIT ( .MILLI., .METRE. ) );
#182 = PERSON_AND_ORGANIZATION ( #208, #220 ) ;
#183 = VECTOR ( 'NONE', #229, 1000.000000000000000 ) ;
#184 = DIRECTION ( 'NONE',  ( 0.000000000000000000, 0.000000000000000000, 1.000000000000000000 ) ) ;
#185 = EDGE_LOOP ( 'NONE', ( #96, #211, #169, #121 ) ) ;
#186 = VERTEX_POINT ( 'NONE', #32 ) ;
#187 = ADVANCED_FACE ( 'NONE', ( #48 ), #126, .F. ) ;
#188 = CC_DESIGN_PERSON_AND_ORGANIZATION_ASSIGNMENT ( #182, #130, ( #131 ) ) ;
#189 = LINE ( 'NONE', #224, #143 ) ;
#190 = CARTESIAN_POINT ( 'NONE',  ( -22.50000000000000355, 15.00000000000000000, 2.500000000000000000 ) ) ;
#191 = FACE_OUTER_BOUND ( 'NONE', #90, .T. ) ;
#192 = LINE ( 'NONE', #26, #46 ) ;
#193 = VECTOR ( 'NONE', #98, 1000.000000000000000 ) ;
#194 = ORIENTED_EDGE ( 'NONE', *, *, #60, .T. ) ;
#195 = LINE ( 'NONE', #227, #35 ) ;
#196 = DIRECTION ( 'NONE',  ( 1.000000000000000000, 1.156482317317871478E-16, 0.000000000000000000 ) ) ;
#197 = DIRECTION ( 'NONE',  ( -0.000000000000000000, -0.000000000000000000, -1.000000000000000000 ) ) ;
#198 = APPROVAL ( #73, 'UNSPECIFIED' ) ;
#199 = APPROVAL_STATUS ( 'not_yet_approved' ) ;
#200 = APPROVAL_ROLE ( '' ) ;
#201 = AXIS2_PLACEMENT_3D ( 'NONE', #141, #119, #162 ) ;
#202 = CC_DESIGN_SECURITY_CLASSIFICATION ( #131, ( #150 ) ) ;
#203 = PERSON_AND_ORGANIZATION_ROLE ( 'creator' ) ;
#204 = EDGE_CURVE ( 'NONE', #133, #186, #192, .T. ) ;
#205 = EDGE_LOOP ( 'NONE', ( #116, #1, #236, #209 ) ) ;
#206 = APPROVAL_DATE_TIME ( #76, #231 ) ;
#207 = EDGE_LOOP ( 'NONE', ( #75, #58, #168, #223 ) ) ;
#208 = PERSON ( 'UNSPECIFIED', 'UNSPECIFIED', 'UNSPECIFIED', ('UNSPECIFIED'), ('UNSPECIFIED'), ('UNSPECIFIED') ) ;
#209 = ORIENTED_EDGE ( 'NONE', *, *, #111, .T. ) ;
#210 = CARTESIAN_POINT ( 'NONE',  ( -22.50000000000000355, 15.00000000000000000, 2.500000000000000000 ) ) ;
#211 = ORIENTED_EDGE ( 'NONE', *, *, #7, .F. ) ;
#212 = DIRECTION ( 'NONE',  ( 3.469446951953614189E-16, -1.000000000000000000, 0.000000000000000000 ) ) ;
#213 = DIRECTION ( 'NONE',  ( 1.000000000000000000, 1.156482317317871478E-16, -0.000000000000000000 ) ) ;
#214 = DIRECTION ( 'NONE',  ( -1.000000000000000000, -3.469446951953614189E-16, 0.000000000000000000 ) ) ;
#215 = VECTOR ( 'NONE', #197, 1000.000000000000000 ) ;
#216 = APPROVAL ( #199, 'UNSPECIFIED' ) ;
#217 = CALENDAR_DATE ( 2024, 19, 11 ) ;
#218 = PERSON_AND_ORGANIZATION ( #208, #220 ) ;
#219 = DATE_AND_TIME ( #217, #101 ) ;
#220 = ORGANIZATION ( 'UNSPECIFIED', 'UNSPECIFIED', '' ) ;
#221 = AXIS2_PLACEMENT_3D ( 'NONE', #190, #24, #8 ) ;
#222 = ORIENTED_EDGE ( 'NONE', *, *, #111, .F. ) ;
#223 = ORIENTED_EDGE ( 'NONE', *, *, #129, .T. ) ;
#224 = CARTESIAN_POINT ( 'NONE',  ( -22.50000000000000355, 15.00000000000000000, 0.000000000000000000 ) ) ;
#225 = FACE_OUTER_BOUND ( 'NONE', #20, .T. ) ;
#226 = CARTESIAN_POINT ( 'NONE',  ( -22.50000000000000355, 15.00000000000000000, 2.500000000000000000 ) ) ;
#227 = CARTESIAN_POINT ( 'NONE',  ( -22.50000000000000355, 15.00000000000000000, 0.000000000000000000 ) ) ;
#228 = LINE ( 'NONE', #80, #12 ) ;
#229 = DIRECTION ( 'NONE',  ( 1.156482317317871478E-16, -1.000000000000000000, 0.000000000000000000 ) ) ;
#230 = EDGE_CURVE ( 'NONE', #114, #186, #195, .T. ) ;
#231 = APPROVAL ( #2, 'UNSPECIFIED' ) ;
#232 = APPROVAL_PERSON_ORGANIZATION ( #218, #198, #146 ) ;
#233 = APPLICATION_PROTOCOL_DEFINITION ( 'international standard', 'config_control_design', 1994, #85 ) ;
#234 = DATE_TIME_ROLE ( 'creation_date' ) ;
#235 = PRODUCT_DEFINITION ( 'UNKNOWN', '', #150, #120 ) ;
#236 = ORIENTED_EDGE ( 'NONE', *, *, #139, .F. ) ;
#237 = PERSON_AND_ORGANIZATION ( #208, #220 ) ;
ENDSEC;
END-ISO-10303-21;
